Free Jam Tracks on FaceBook

Like FJT on Facebook

Free Jam Tracks Amp Head

Free Jam Tracks - Brought to you by Nick Cresswell

The Jam Tracks Stack

The Cobra

   

mp3: The Cobra Guitar/Lead Jam Track
wma: The Cobra Guitar/Lead Jam Track

The Cobra is a jam track dedicated to brother Caleb Keegan.

The Cobra Jam is me playing around using the E Blues Scale. I'm sure you'll be able to come up with something a lot better if you jam with the track for a while.
mp3: The Cobra Jam
wma: The Cobra Jam

Time/size: 3 mins 45 secs/3.46MB. 90 beats per minute/bpm

The Cobra jam track: Groove in the key of E.

Backing track instruments: acoustic guitar, fretless bass and drums.

Progression: E, G progression.

Suggestions: The E Blues scale works great over this simle two chord progression.

The Cobra Scale Suggestions

1. E Blues Scale

The Root note, E, of the E Blues Scale is on the 7th fret of the 5th string from the tab below. The tab below covers about 80% of the notes I'm playing in The Cobra Jam for 90% of the time.

E|--------------------------------------10-12-
B|-------------------------8-10-11-12--------
G|--------------------7-9---------------------
D|-------------7-8-9--------------------------
A|-----5-7-10---------------------------------
E|-5-7-------------------------------------

2. E Blues Scale - 12th Position - Two Octaves

Another 10% of the notes I'm playing come from the E Blues Scale in 12th position which I'm playing in The Cobra Jam for about 15% of the time.

E|--------------------------------------------12-15-
B|-------------------------------------12-15--------
G|--------------------------12-14-15---------------
D|-------------------12-14--------------------------
A|--------12-13-14---------------------------------
E|-12-15--------------------------------------------

The other 10% of the notes that I'm playing about 5% of the time are a secret.

You go find your own secret notes.

Jam on!

jam tracks music canoe

Free Jam Tracks on FaceBook

Like FJT on Facebook

The Jam Tracks Stack

 

© Copyright - www.FreeJamTracks.com. All Rights Reserved Worldwide. Privacy - Legal - Contact