Free Jam Tracks on FaceBook

Like FJT on Facebook

Free Jam Tracks Amp Head

Free Jam Tracks - Brought to you by Nick Cresswell

Free Jam Tracks Stack

The Coolest Band in the World

   

mp3: The Coolest Band in the World Guitar Jam Track
wma: The Coolest Band in the World Guitar Jam Track

mp3: The Coolest Band in the World Bass Jam Track
wma: The Coolest Band in the World Bass Jam Track

mp3: The Coolest Band in the World Drums Jam Track
wma: The Coolest Band in the World Drums Jam Track

Time/size: 4 mins 43 secs/6.6mb. 154 beats per minute/bpm

Texas blues jam track: The Coolest Band in the World is a blues based groove all the way from Texas.

The Coolest Band in the World is brought to you by the letters:

Z, Z, T, o and p.

Backing track instruments: electric guitar, fretless bass and drums.

Progression: G5, Bb5 and C5.

Suggestions: The G Blues scale leads down the I-45 to Houston Texas on this jam track.

The Coolest Band in the World Chords

E5 Rhythm Guitar - Electric

G5

E|--x--
B|--x--
G|--0--
D|--0--
A|--x--
E|--3--

Bb5

E|--x--
B|--x--
G|--3--
D|--3--
A|--1--
E|--x--

C5

E|--x--
B|--x--
G|--5--
D|--5--
A|--3--
E|--x--

Chord Progression

Make sure you play the x's. You can lightly hit any of the strings on an upstroke as you go to the chord you're moving too. The strings will more likely be open strings rather than strings you've dampened (which is usually what x refers to in guitar tab).

You want to play this progression with nothing but groove. It's 100% feel. If you can't get the groove at first slow things down and keep at it. If you play it every day for a while things will kick in for you at some point as long as you tap your foot and focus on the beat and rhythm of the whole thang.

E|---------------------------------
B|--------------------x--------x--
G|---0--0--0--0--0--x--3--5--x--
D|---0--0--0--0--0--x--3--5--x--
A|-----------------------1--3-----
E|-3----3--3--3--3---------------

The Coolest Band in the World Scales

Straight ahead blues on this one.

1. G Blues Scale - 10th Position - Two Octaves

E|-----------------------------------------13-15-
B|--------------------------11-13-14-15---------
G|-------------------10-12-----------------------
D|--------10-11-12------------------------------
A|-10-13-----------------------------------------
E|------------------------------------------------

2. G Blues Scale - 15th Position - Two Octaves

E|--------------------------------------------15-18-
B|-------------------------------------15-18--------
G|--------------------------15-17-18---------------
D|-------------------15-17--------------------------
A|--------15-16-17-----------------------------------
E|-15-18---------------------------------------------

The Coolest Band in the World Bass Tab

G|------------------------
D|------------------------
A|-----------------3-5-3-
E|-0-0-0-0-0-0-0--------

The Coolest Band in the World Drum Chart

Groove hard.

Webpage: The Coolest Band in the World Drum Chart

Download: The Coolest Band in the World Drum Chart

The Coolest Band in the World Click for Drum Chart

Jam on!

jam tracks music canoe

Free Jam Tracks on FaceBook

Like FJT on Facebook

The Jam Tracks Stack

 

© Copyright - www.FreeJamTracks.com. All Rights Reserved Worldwide. Privacy - Legal - Contact